• Jan 01 Tue 2013 21:35
  • 2013

有時會擔心,是不是活在夢中? 有影像紀錄 人口敘說 書筆紙記,
這都不能完全把握,或許 手記下的心情,才是證明當下起心動念,
雖然 腦袋記錄也可能 是假的.... 吃飽太閒.....




-----------------------------------------------------13/12/31-----------
這年 最後一天
面孔 事事

是否感覺 時間好久
不 光陰似箭 打的措手不及
甚至快到 還沒審視之前 就已給了決定

幾個年 才能算一個單位?



-----------------------------------------------------13/12/11-----------
在些些 就3點 我好想 看著日出雲暈
---

進行間 如果見著日出暈光 如果發現了晨曦彩雲
如果 剛好停下了眼光 注視

日光 漸透天空 雲染穿光 會洗滌了心
渙散發出 讓人 成長的力量


我好想



-----------------------------------------------------2013/-----------
今年 留頭髮 確沒有十幾二十的澎亂

家人說 : [因為現在 你的毛順了]



-----------------------------------------------------2013/12/08------
我 是自由之人 但為何 讓自己受困於塵世總總之中

從以至今 多事如此

如今一件牽掛 讓我難過 好久 好久





-----------------------------------------------------2013/12/06------
是否 會陷入自己幻想或認為的??!!

我會 因為

這是很爽的事!!

Ps:今天下雨了



-----------------------------------------------------2013/12/04------
幾天,晴日多星也多,白日暖夜風寒,
有時忘了,已經冬天了。

赤空秋夢,神藏星繁。





-----------------------------------------------------2013/11/21------
我的 殼在哪裡? 可以躲在哪裡?
沒有 我找不到。
原來 殼在我誕生時 就破碎化成塵埃。



天地之間



-----------------------------------------------------2013/11/14------
下午 五點,天空如刮花的石灰牆,稀疏片片塊塊。





-----------------------------------------------------2013/10/24子----
看著之前寫在部落格的一些東西,
我真是個無聊又隨便自我哀愁的人..

喝點點酒,腦袋居然會清醒些看東西....


Chet Baker & Bill Evans, The Complete Legendary Sessions
https://www.youtube.com/watch?v=73oSZ_6PE_Y



-----------------------------------------------------2013/10/20(十六)----
十六月亮白圓圓 阿嬤臉蛋胖圓圓



-----------------------------------------------------2013/10/18----
一陣子,都沒出去踏踏步,我是個貪寂寞,又依賴的人。

這陣子,還是一如往常的偶而衝突,我包容不了你拉不下臉。只是 親愛的爹地 那麼長久了,是我學不會還是你學不會,不是...是都不學...

不實在的天馬行空,是 我實在活著的動力。

不知道如何用真正的心態面對現實,或是不在乎,眼中只見到我侷限的自私憂愁,
貪戀著獨自吹風滋味。


吹了風 就覺得冷了。




-----------------------------------------------------2013/8/24-----
藍天上棉花雲
拉出了條絲線
是飛機尾巴 慢慢抽拉著

我離開了雲間 回到了世界當中

原來你 真的躲起來了


-----------------------------------------------------2013/8/9------
時間枷鎖無在束縛 祝福你 風流瀟灑 自我依舊 王者姿態 傲骨留存


我守護著 驕傲血脈

##一定是躲起來!!!??


-----------------------------------------------------2013/7/22-----

癸巳 蛇年
六月十五
大暑


夜風吹吹 無雲礙著
月 鏡日朝 銀光閃耀
萬人景仰 威風凜凜
孰實可惡

依然 風情萬種。
-----------------
我舉著手電筒 對你閃阿閃
你是否 也會對我眨眨眼?


-----------------------------------------------------2013/7/12-----
在找尋生活的價值之前,應該要先學會尊重我自己。



-----------------------------------------------------2013--5-18----
深夜不眠 卻上來念文嚼字 想著我所愛忘不了

飲酒後 我總覺得 腦袋清醒萬分

-----------------------------------------------------2013--5-2----
人心意志是脆弱,顛倒夢想,
失去了光和信仰,就會深怕黑暗和扭曲的到來與侵蝕,
也許是人類腦袋太聰明,信念才會如此薄弱。

所以除了堅定的信念,也需要無雜質的信仰,來強化我的心。



-----------------------------------------------------2013--4-24---
夜色繽紛 天涼,外頭活動;寬廣或合適的高度地方,
想起我是存在於這城市風景的點,體驗其中,享受著。

十點,河邊幔上白紗。



-----------------------------------------------------2013--4-13---
不論如何,形象都必須存在生活記憶,互相陪伴著光陰流逝,
不管怎麼相處,角色扮演。
我會壯年,會老,會生病,會有很多解釋不了的問題,最終死去;
你會長大,經過年輕奔放,受盡委屈,會成熟,追尋自我;
但我們必須互相看著,我希望能互相看著,
成為不被忘記的父親形象,並能看著孩子到直我最後的最後。



------------------------------------------------2013--4-9-初一---
去土地公拜拜,拜完了在裡頭待一會,讓香薰。

來了位阿伯,入內後把帽子拖了放一旁,先點了蠟燭,
拿著蠟燭,把別人被風吹滅的,都接了火,自己才插上燭台,然後點香,
恭敬快速的拜完五個爐,就離開了。

我沒有從心像阿伯一樣大方態度,實在慚愧。



-----------------------------------------------------2013--4-9---
晚 有點冷,光腳踏漫水雨地,涼到心底,
趕緊躲回來。久不見月,實在想念,依賴很多,抓在心中,

---
陳潔儀 重譯CD
http://www.youtube.com/watch?v=kEUmLGFMpqo&list=PLFC8AAB5F502ECEE9




-----------------------------------------------------2013--4-6-----
天阿!同在床上,她看起來枕頭好大.....她位置看起來也 超大....
我好擠,枕頭也好小.....

不公平!!! 但是我喜歡看著她睡覺。

------
當猴子?還是看猴子?????
------
Oasis - Heathen Chemistry
https://www.youtube.com/watch?v=Lt7g_UkkZv0



-----------------------------------------------------2013--3-28(十六)-----
兩天來,頭痛,右邊太陽穴抽著抽著,沒很嚴重,但持續也很煩,

---
晚跑去時,往百齡,橋上鮮豔虹燈已關了,剩黃黃路燈,地上看好像有其他,河面散著藍白色的霜,原來是月亮光輝,好久不見。

回到磺溪,看水面月影,二十燭光燈球,吊在黑壓壓天花板上,不知啥原因來的水面漣漪,迷人恬醉。

-----------------------------------------------------------2013--3-20-----
晚時,轉涼起來,好懶....。

沒準備換衣服跑步,來準備輕鬆食物,

半包3合1咖啡+1匙黑咖啡,
厚片香柔吐司,塗上薄薄黃芥末,烤到雙面金黃,
今天,就在家養肥你....


-----------------------------------------------------------2013--3-19-----
朦朧細雨。


-----------------------------------------------------------2013--3-12-----
小時候,阿公 爸爸的故鄉,在山上,夏天都會上去玩,假如有機會過夜,可以看見螢火蟲,和 滿天星斗,多到不可思議的星星;現在有時 抬頭看著夜空,星星們哪去了?其實也曉得光害遮了天,所以望著城市燈火,懷念著星空銀河。

心裡想什麼,為什麼會習慣跟別人講?
不是這樣,只是沒講的,別人也不懂....

所以 我然

-----
父親
從我自小到大,現在想起最好的是,都把我抓在身邊,不管是打是罵還是叫幫手。因為這樣,我才忘不了 你的重要。

-----------------------------------------------------------2013--3-9-----
運動心情放鬆,不需要過量造成壓力,反正 也沒有很強烈的目的~

晚上 到達了目標的路程,回程用走的,過橋下後 有隻龜,趴在自行車道中間,想抓回河邊!之前有經驗,會漏水,這次從頭的方向抓;好大隻!!殼寬應該30公分,提到了水邊草堆上放著,帽子搧著腳,怕蚊蟲咬著,烏龜頭伸出來,看見帽子躲了回去,好吧那不搧了,又伸出來,這次覺得安全,好像發現前是河水,希颼兩下 咚!! 下了水,

我盼啊盼 ~ 烏龜會不會探個頭,跟我來個謝謝.... 沒有 牠應該是覺得我雞婆,還嚇到牠....

既然休息了一下,那還是繼續跑回去~



-------------------------------------------------2013--1-24--( 十八 : 週二)-----
今 午暖光陽 到了晚 漸漸變冷 風開始涼了
八九點多 月低掛 明亮十分

暖暖黃色 像天上裝了盞燈泡 靜望 是十七了嗎?

操場上 天空乾淨 無雲 月兔忙碌 見著 真是舒服

十點 滿天星斗 在看一眼美月。



-----------------------------------------------------------2013--1-24-----
喔 應該說 昨天有點累,開心動到了身體~

----------------------------------------------------------
多久沒大哭?
為什麼哭呢?只要不要是痛的哭,偶而來一次都不錯。

身體,臉放鬆了,心情放鬆。
大哭那次,後來就都沒了,沒辦法放開心哭。

哭完,心情是滿足。
幾樣難忘記憶。

-------
BILL EVANS "Danny Boy" (Londonderry Air) Piano solo.
很好聽..





------------------------------------------------------------2013--1-13-----
35210030
(比動作請他拍直的時,剛好按下快門,天色昏暗)

幾天前,去承德路外雙溪口拍黃昏,心情好,突然想留張2013照片作紀念。
我好久沒拍照了。

害怕拍照,每次相機對著,我都會緊張到全身發抖,表情抽蓄;是自卑覺得自己醜,
不敢面對人(雖然面對人已不會),相機的注視,是強烈感覺,希望自己哪天也能一派輕鬆望著它。

照片是在提防斜坡上,下方是自行車道,找路人幫我拍一張,為了幫我拍照,他也跟著我爬上提防,希望拍直的,但已經按下去,沒關西!在幫我拍一張吧! 感謝你!!

35210031
μ[mju]-1愛克發100幻燈片 正沖副 2012-1-11


------------------------------------------------------------2013--1-10-----
有人很早明白目標生活,我則現在才慢慢明白,
但還是恭喜自己,瞭解了部分。

這陣子,遇到活動,遇到了老旅社,遇到了小時的感覺。
更新自己前進,更瞭解,還是該以懷念記憶為依歸,
我需要慢的生活,
我要當不太顯眼的重點角色,
我要在廣大裡互動人群,
我需要狹窄或寧靜的空間,
我需要行動消耗腦袋的天馬行空。

感謝奇蹟,莫名中,得到很多。
創作者介紹
創作者 damida 的頭像
damida

DAMIDA

damida 發表在 痞客邦 留言(9) 人氣()


留言列表 (9)

發表留言
  • 厭情
  • 至少你明白自己在找什麼或要什麼!
    ^^~
  • 我需要更積極,謝謝你~

    damida 於 2013/01/17 18:04 回覆

  • 空空如也
  • 我也常常在夢境與現實中交錯,所以喜歡用文字紀錄腦海閃過的天馬行空,希望到老有東西可以拿出來看。 呵呵...其實空空覺得...每一階段或許都沒照著步驟走,但是記得自己在過程當下感受片刻快樂或難過或悲傷或憂愁,回想過往,這些紀錄都是人生呢! 

    加油囉~達米達
  • 達米達~加油嘍!
    謝謝你!!

    damida 於 2013/01/19 21:36 回覆

  • Bamboo
  • 最近常常在夢中想起曾做過的夢~在現實生活中想起的卻是發生過的事
    我想我的腦大概也漸漸地把它分成兩個不一樣的世界
    讓我可以恣意地選擇要在哪個世界裡生活
  • 謝謝你!!奇特的好想法!!

    夢有好有壞,會時常想起懷念的那些,或許是我嚮往卻無法進行的生活方式;你的想法會讓我有想追尋夢中態度的衝動!!

    damida 於 2013/03/13 23:01 回覆

  • 風銘
  • 這讓我想到《軒轅劍天之痕》裡面的一段話...
    「我從來不會相信,有人會因為夢裡的經歷而痛心,
    直到現在我才明白,原來經歷過的,就是現實。」
  • 真酷的話~

    即使是夢,烙出了痕,就忘不了~
    假如是很深刻的,過了十多年可能都還是記得著情境吧~
    謝謝你!!

    damida 於 2013/03/16 00:25 回覆

  • 悄悄話
  • greamo
  • 這些日記寫的短短的,但是你有些句子讓我很有感觸
    河邊漫白紗,或是3-12的回想

    感謝分享:)
  • 謝謝你!!
    只有記下來,我才能在試著感受那天不同心情,
    很高興你來跟我聊聊~

    damida 於 2013/04/26 17:22 回覆

  • 山石
  • 好特別的心情日記
    當時的感覺 ~ 想說的話 ~ 思念的人...
    每一段都讓人感觸回味
  • 謝謝你!!

    damida 於 2013/10/29 22:39 回覆

  • City Cafe
  • 這本日記 走完這個月 也該為2013畫下句點了.

    Damida 午安 ^^
  • 今年多事,許多無法在日記表達,但如你說,總有句點,也有新的開始~
    感謝你!

    damida 於 2013/12/04 00:11 回覆

  • 欣悅
  • 很活潑輕快的生活記錄 很有俏皮味又有趣的言語
    周日開心愉快^^
  • 謝謝你!!

    damida 於 2013/12/09 00:13 回覆